ISO-10303-21;
HEADER;
FILE_DESCRIPTION (( 'STEP AP203' ),
    '1' );
FILE_NAME ('MHWP-25.4-780.STEP',
    '2020-12-22T09:27:05',
    ( '' ),
    ( '' ),
    'SwSTEP 2.0',
    'SolidWorks 2020',
    '' );
FILE_SCHEMA (( 'CONFIG_CONTROL_DESIGN' ));
ENDSEC;

DATA;
#1 =( LENGTH_UNIT ( ) NAMED_UNIT ( * ) SI_UNIT ( .MILLI., .METRE. ) );
#2 = ADVANCED_FACE ( 'NONE', ( #143 ), #71, .T. ) ;
#3 = LINE ( 'NONE', #27, #11 ) ;
#4 = CARTESIAN_POINT ( 'NONE',  ( -1.187907395172932594E-15, 0.000000000000000000, 0.000000000000000000 ) ) ;
#5 = CARTESIAN_POINT ( 'NONE',  ( 1.999999999999998224, 0.000000000000000000, 0.000000000000000000 ) ) ;
#6 = AXIS2_PLACEMENT_3D ( 'NONE', #32, #157, #148 ) ;
#7 = PERSON_AND_ORGANIZATION ( #109, #99 ) ;
#8 = PERSON_AND_ORGANIZATION ( #109, #99 ) ;
#9 = APPROVAL ( #77, 'UNSPECIFIED' ) ;
#10 = APPROVAL_ROLE ( '' ) ;
#11 = VECTOR ( 'NONE', #127, 1000.000000000000000 ) ;
#12 = CC_DESIGN_PERSON_AND_ORGANIZATION_ASSIGNMENT ( #20, #147, ( #172 ) ) ;
#13 = CIRCLE ( 'NONE', #145, 12.69999999999999929 ) ;
#14 = ORIENTED_EDGE ( 'NONE', *, *, #49, .T. ) ;
#15 = ADVANCED_FACE ( 'NONE', ( #17 ), #100, .F. ) ;
#16 = LOCAL_TIME ( 17, 27, 5.000000000000000000, #136 ) ;
#17 = FACE_OUTER_BOUND ( 'NONE', #24, .T. ) ;
#18 = CARTESIAN_POINT ( 'NONE',  ( 0.000000000000000000, 0.000000000000000000, 0.000000000000000000 ) ) ;
#19 = DIRECTION ( 'NONE',  ( -1.000000000000000000, -0.000000000000000000, -0.000000000000000000 ) ) ;
#20 = PERSON_AND_ORGANIZATION ( #109, #99 ) ;
#21 = CC_DESIGN_PERSON_AND_ORGANIZATION_ASSIGNMENT ( #7, #119, ( #53 ) ) ;
#22 = DATE_AND_TIME ( #52, #16 ) ;
#23 = APPROVAL_STATUS ( 'not_yet_approved' ) ;
#24 = EDGE_LOOP ( 'NONE', ( #111, #67 ) ) ;
#25 = ADVANCED_FACE ( 'NONE', ( #97 ), #156, .T. ) ;
#26 = CC_DESIGN_APPROVAL ( #40, ( #103 ) ) ;
#27 = CARTESIAN_POINT ( 'NONE',  ( 0.000000000000000000, 1.555301434917138433E-15, -12.69999999999999929 ) ) ;
#28 = CARTESIAN_POINT ( 'NONE',  ( -5.939536975864662969E-16, 12.69999999999999929, 0.000000000000000000 ) ) ;
#29 = PRODUCT_DEFINITION_SHAPE ( 'NONE', 'NONE',  #103 ) ;
#30 = PRODUCT_RELATED_PRODUCT_CATEGORY ( 'detail', '', ( #73 ) ) ;
#31 = DIRECTION ( 'NONE',  ( -1.000000000000000000, 0.000000000000000000, -0.000000000000000000 ) ) ;
#32 = CARTESIAN_POINT ( 'NONE',  ( 0.000000000000000000, 0.000000000000000000, 0.000000000000000000 ) ) ;
#33 = APPLICATION_CONTEXT ( 'configuration controlled 3d designs of mechanical parts and assemblies' ) ;
#34 = CC_DESIGN_DATE_AND_TIME_ASSIGNMENT ( #50, #75, ( #103 ) ) ;
#35 = APPLICATION_PROTOCOL_DEFINITION ( 'international standard', 'config_control_design', 1994, #160 ) ;
#36 = PERSON_AND_ORGANIZATION ( #109, #99 ) ;
#37 = DATE_AND_TIME ( #84, #158 ) ;
#38 = SECURITY_CLASSIFICATION_LEVEL ( 'unclassified' ) ;
#39 = CC_DESIGN_APPROVAL ( #140, ( #172 ) ) ;
#40 = APPROVAL ( #23, 'UNSPECIFIED' ) ;
#41 = ORIENTED_EDGE ( 'NONE', *, *, #149, .T. ) ;
#42 = EDGE_LOOP ( 'NONE', ( #41, #78, #173, #110 ) ) ;
#43 = DIRECTION ( 'NONE',  ( 0.000000000000000000, 0.000000000000000000, 1.000000000000000000 ) ) ;
#44 = DIRECTION ( 'NONE',  ( -1.000000000000000000, -0.000000000000000000, -0.000000000000000000 ) ) ;
#45 = APPLICATION_PROTOCOL_DEFINITION ( 'international standard', 'config_control_design', 1994, #33 ) ;
#46 = AXIS2_PLACEMENT_3D ( 'NONE', #81, #44, #175 ) ;
#47 = DIRECTION ( 'NONE',  ( -1.000000000000000000, -0.000000000000000000, -0.000000000000000000 ) ) ;
#48 = PLANE ( 'NONE',  #87 ) ;
#49 = EDGE_CURVE ( 'NONE', #151, #150, #93, .T. ) ;
#50 = DATE_AND_TIME ( #106, #167 ) ;
#51 = PERSON_AND_ORGANIZATION ( #109, #99 ) ;
#52 = CALENDAR_DATE ( 2020, 22, 12 ) ;
#53 = PRODUCT_DEFINITION_FORMATION_WITH_SPECIFIED_SOURCE ( 'ANY', '', #73, .NOT_KNOWN. ) ;
#54 = PERSON_AND_ORGANIZATION_ROLE ( 'design_owner' ) ;
#55 = LOCAL_TIME ( 17, 27, 5.000000000000000000, #85 ) ;
#56 = ORIENTED_EDGE ( 'NONE', *, *, #92, .T. ) ;
#57 = AXIS2_PLACEMENT_3D ( 'NONE', #133, #31, #154 ) ;
#58 = EDGE_CURVE ( 'NONE', #150, #151, #124, .T. ) ;
#59 = DIRECTION ( 'NONE',  ( 0.000000000000000000, 0.000000000000000000, 1.000000000000000000 ) ) ;
#60 = CC_DESIGN_APPROVAL ( #9, ( #53 ) ) ;
#61 = MANIFOLD_SOLID_BREP ( 'Ðý×', #89 ) ;
#62 = DATE_AND_TIME ( #74, #55 ) ;
#63 = MECHANICAL_CONTEXT ( 'NONE', #33, 'mechanical' ) ;
#64 = EDGE_CURVE ( 'NONE', #164, #125, #171, .T. ) ;
#65 = CALENDAR_DATE ( 2020, 22, 12 ) ;
#66 = AXIS2_PLACEMENT_3D ( 'NONE', #5, #144, #80 ) ;
#67 = ORIENTED_EDGE ( 'NONE', *, *, #64, .F. ) ;
#68 = DIRECTION ( 'NONE',  ( 0.000000000000000000, 0.000000000000000000, 1.000000000000000000 ) ) ;
#69 =( NAMED_UNIT ( * ) PLANE_ANGLE_UNIT ( ) SI_UNIT ( $, .RADIAN. ) );
#70 = CARTESIAN_POINT ( 'NONE',  ( 0.000000000000000000, 0.000000000000000000, 12.69999999999999929 ) ) ;
#71 = CYLINDRICAL_SURFACE ( 'NONE', #98, 12.69999999999999929 ) ;
#72 = APPROVAL_PERSON_ORGANIZATION ( #36, #40, #83 ) ;
#73 = PRODUCT ( 'MHWP-25.4-780', 'MHWP-25.4-780', '', ( #63 ) ) ;
#74 = CALENDAR_DATE ( 2020, 22, 12 ) ;
#75 = DATE_TIME_ROLE ( 'creation_date' ) ;
#76 = APPROVAL_PERSON_ORGANIZATION ( #159, #140, #10 ) ;
#77 = APPROVAL_STATUS ( 'not_yet_approved' ) ;
#78 = ORIENTED_EDGE ( 'NONE', *, *, #162, .T. ) ;
#79 = DIRECTION ( 'NONE',  ( 0.000000000000000000, 0.000000000000000000, 1.000000000000000000 ) ) ;
#80 = DIRECTION ( 'NONE',  ( 0.000000000000000000, 0.000000000000000000, 1.000000000000000000 ) ) ;
#81 = CARTESIAN_POINT ( 'NONE',  ( 0.000000000000000000, 0.000000000000000000, 0.000000000000000000 ) ) ;
#82 = DIRECTION ( 'NONE',  ( -1.000000000000000000, -0.000000000000000000, -0.000000000000000000 ) ) ;
#83 = APPROVAL_ROLE ( '' ) ;
#84 = CALENDAR_DATE ( 2020, 22, 12 ) ;
#85 = COORDINATED_UNIVERSAL_TIME_OFFSET ( 8, 0, .AHEAD. ) ;
#86 = APPROVAL_DATE_TIME ( #37, #140 ) ;
#87 = AXIS2_PLACEMENT_3D ( 'NONE', #28, #116, #130 ) ;
#88 = ORIENTED_EDGE ( 'NONE', *, *, #64, .T. ) ;
#89 = CLOSED_SHELL ( 'NONE', ( #25, #2, #15, #132 ) ) ;
#90 = ORIENTED_EDGE ( 'NONE', *, *, #162, .F. ) ;
#91 = ORIENTED_EDGE ( 'NONE', *, *, #58, .F. ) ;
#92 = EDGE_CURVE ( 'NONE', #125, #151, #96, .T. ) ;
#93 = CIRCLE ( 'NONE', #126, 12.69999999999999929 ) ;
#94 = CARTESIAN_POINT ( 'NONE',  ( -1.187907395172932594E-15, 0.000000000000000000, 12.69999999999999929 ) ) ;
#95 = CC_DESIGN_PERSON_AND_ORGANIZATION_ASSIGNMENT ( #134, #168, ( #103 ) ) ;
#96 = LINE ( 'NONE', #70, #165 ) ;
#97 = FACE_OUTER_BOUND ( 'NONE', #42, .T. ) ;
#98 = AXIS2_PLACEMENT_3D ( 'NONE', #18, #47, #79 ) ;
#99 = ORGANIZATION ( 'UNSPECIFIED', 'UNSPECIFIED', '' ) ;
#100 = PLANE ( 'NONE',  #57 ) ;
#101 = DESIGN_CONTEXT ( 'detailed design', #160, 'design' ) ;
#102 = COORDINATED_UNIVERSAL_TIME_OFFSET ( 8, 0, .AHEAD. ) ;
#103 = PRODUCT_DEFINITION ( 'UNKNOWN', '', #53, #101 ) ;
#104 = APPROVAL_DATE_TIME ( #62, #9 ) ;
#105 = APPROVAL_DATE_TIME ( #169, #40 ) ;
#106 = CALENDAR_DATE ( 2020, 22, 12 ) ;
#107 = PERSON_AND_ORGANIZATION ( #109, #99 ) ;
#108 = LOCAL_TIME ( 17, 27, 5.000000000000000000, #121 ) ;
#109 = PERSON ( 'UNSPECIFIED', 'UNSPECIFIED', 'UNSPECIFIED', ('UNSPECIFIED'), ('UNSPECIFIED'), ('UNSPECIFIED') ) ;
#110 = ORIENTED_EDGE ( 'NONE', *, *, #92, .F. ) ;
#111 = ORIENTED_EDGE ( 'NONE', *, *, #149, .F. ) ;
#112 = CC_DESIGN_SECURITY_CLASSIFICATION ( #172, ( #53 ) ) ;
#113 = ORIENTED_EDGE ( 'NONE', *, *, #58, .T. ) ;
#114 = CARTESIAN_POINT ( 'NONE',  ( 1.999999999999998224, 0.000000000000000000, 12.69999999999999929 ) ) ;
#115 = DIRECTION ( 'NONE',  ( -1.000000000000000000, -0.000000000000000000, -0.000000000000000000 ) ) ;
#116 = DIRECTION ( 'NONE',  ( 1.000000000000000000, 0.000000000000000000, 0.000000000000000000 ) ) ;
#117 = CC_DESIGN_PERSON_AND_ORGANIZATION_ASSIGNMENT ( #8, #54, ( #73 ) ) ;
#118 = CC_DESIGN_DATE_AND_TIME_ASSIGNMENT ( #22, #122, ( #172 ) ) ;
#119 = PERSON_AND_ORGANIZATION_ROLE ( 'design_supplier' ) ;
#120 =( GEOMETRIC_REPRESENTATION_CONTEXT ( 3 ) GLOBAL_UNCERTAINTY_ASSIGNED_CONTEXT ( ( #123 ) ) GLOBAL_UNIT_ASSIGNED_CONTEXT ( ( #1, #69, #155 ) ) REPRESENTATION_CONTEXT ( 'NONE', 'WORKASPACE' ) );
#121 = COORDINATED_UNIVERSAL_TIME_OFFSET ( 8, 0, .AHEAD. ) ;
#122 = DATE_TIME_ROLE ( 'classification_date' ) ;
#123 = UNCERTAINTY_MEASURE_WITH_UNIT (LENGTH_MEASURE( 1.000000000000000082E-05 ), #1, 'distance_accuracy_value', 'NONE');
#124 = CIRCLE ( 'NONE', #131, 12.69999999999999929 ) ;
#125 = VERTEX_POINT ( 'NONE', #114 ) ;
#126 = AXIS2_PLACEMENT_3D ( 'NONE', #152, #115, #59 ) ;
#127 = DIRECTION ( 'NONE',  ( -1.000000000000000000, -0.000000000000000000, -0.000000000000000000 ) ) ;
#128 = CARTESIAN_POINT ( 'NONE',  ( -1.187907395172932594E-15, 1.555301434917138433E-15, -12.69999999999999929 ) ) ;
#129 = CARTESIAN_POINT ( 'NONE',  ( 1.999999999999998224, 0.000000000000000000, 0.000000000000000000 ) ) ;
#130 = DIRECTION ( 'NONE',  ( 0.000000000000000000, 0.000000000000000000, -1.000000000000000000 ) ) ;
#131 = AXIS2_PLACEMENT_3D ( 'NONE', #4, #82, #68 ) ;
#132 = ADVANCED_FACE ( 'NONE', ( #166 ), #48, .F. ) ;
#133 = CARTESIAN_POINT ( 'NONE',  ( 1.999999999999999112, 12.69999999999999929, 0.000000000000000000 ) ) ;
#134 = PERSON_AND_ORGANIZATION ( #109, #99 ) ;
#135 = SHAPE_DEFINITION_REPRESENTATION ( #29, #174 ) ;
#136 = COORDINATED_UNIVERSAL_TIME_OFFSET ( 8, 0, .AHEAD. ) ;
#137 = COORDINATED_UNIVERSAL_TIME_OFFSET ( 8, 0, .AHEAD. ) ;
#138 = PERSON_AND_ORGANIZATION_ROLE ( 'creator' ) ;
#139 = EDGE_LOOP ( 'NONE', ( #90, #88, #56, #91 ) ) ;
#140 = APPROVAL ( #146, 'UNSPECIFIED' ) ;
#141 = APPROVAL_PERSON_ORGANIZATION ( #51, #9, #161 ) ;
#142 = CARTESIAN_POINT ( 'NONE',  ( 1.999999999999998224, 1.555301434917138433E-15, -12.69999999999999929 ) ) ;
#143 = FACE_OUTER_BOUND ( 'NONE', #139, .T. ) ;
#144 = DIRECTION ( 'NONE',  ( -1.000000000000000000, -0.000000000000000000, -0.000000000000000000 ) ) ;
#145 = AXIS2_PLACEMENT_3D ( 'NONE', #129, #19, #43 ) ;
#146 = APPROVAL_STATUS ( 'not_yet_approved' ) ;
#147 = PERSON_AND_ORGANIZATION_ROLE ( 'classification_officer' ) ;
#148 = DIRECTION ( 'NONE',  ( 1.000000000000000000, 0.000000000000000000, 0.000000000000000000 ) ) ;
#149 = EDGE_CURVE ( 'NONE', #125, #164, #13, .T. ) ;
#150 = VERTEX_POINT ( 'NONE', #128 ) ;
#151 = VERTEX_POINT ( 'NONE', #94 ) ;
#152 = CARTESIAN_POINT ( 'NONE',  ( -1.187907395172932594E-15, 0.000000000000000000, 0.000000000000000000 ) ) ;
#153 = DIRECTION ( 'NONE',  ( -1.000000000000000000, -0.000000000000000000, -0.000000000000000000 ) ) ;
#154 = DIRECTION ( 'NONE',  ( -0.000000000000000000, 0.000000000000000000, 1.000000000000000000 ) ) ;
#155 =( NAMED_UNIT ( * ) SI_UNIT ( $, .STERADIAN. ) SOLID_ANGLE_UNIT ( ) );
#156 = CYLINDRICAL_SURFACE ( 'NONE', #46, 12.69999999999999929 ) ;
#157 = DIRECTION ( 'NONE',  ( 0.000000000000000000, 0.000000000000000000, 1.000000000000000000 ) ) ;
#158 = LOCAL_TIME ( 17, 27, 5.000000000000000000, #137 ) ;
#159 = PERSON_AND_ORGANIZATION ( #109, #99 ) ;
#160 = APPLICATION_CONTEXT ( 'configuration controlled 3d designs of mechanical parts and assemblies' ) ;
#161 = APPROVAL_ROLE ( '' ) ;
#162 = EDGE_CURVE ( 'NONE', #164, #150, #3, .T. ) ;
#163 = EDGE_LOOP ( 'NONE', ( #14, #113 ) ) ;
#164 = VERTEX_POINT ( 'NONE', #142 ) ;
#165 = VECTOR ( 'NONE', #153, 1000.000000000000000 ) ;
#166 = FACE_OUTER_BOUND ( 'NONE', #163, .T. ) ;
#167 = LOCAL_TIME ( 17, 27, 5.000000000000000000, #102 ) ;
#168 = PERSON_AND_ORGANIZATION_ROLE ( 'creator' ) ;
#169 = DATE_AND_TIME ( #65, #108 ) ;
#170 = CC_DESIGN_PERSON_AND_ORGANIZATION_ASSIGNMENT ( #107, #138, ( #53 ) ) ;
#171 = CIRCLE ( 'NONE', #66, 12.69999999999999929 ) ;
#172 = SECURITY_CLASSIFICATION ( '', '', #38 ) ;
#173 = ORIENTED_EDGE ( 'NONE', *, *, #49, .F. ) ;
#174 = ADVANCED_BREP_SHAPE_REPRESENTATION ( 'MHWP-25.4-780', ( #61, #6 ), #120 ) ;
#175 = DIRECTION ( 'NONE',  ( 0.000000000000000000, 0.000000000000000000, 1.000000000000000000 ) ) ;
ENDSEC;
END-ISO-10303-21;
